Official New Songs and Tabs Discussion - Page 3 - Antsmarching.org Forums

Go Back   Antsmarching.org Forums > General Discussion > Musician Discussion


Want to hide all ads on Ants? Click here
Reply
 
Thread Tools Display Modes
Old 03-16-2005, 09:54 PM   #61
dmb1spe
 
dmb1spe's Avatar
 
Join Date: Apr 2003
Posts: 15,384

Shows Seen: 8

Re: Official New Songs and Tabs Discussion

Anyone have American Baby yet?
dmb1spe is offline   Reply With Quote

  • Want to hide all ads on Ants? Click here
  • Old 04-18-2005, 07:10 PM   #62
    klobb
    My Head is Pounding
     
    klobb's Avatar
     
    Join Date: Feb 2005
    Location: Toronto, Ontario, Canada
    Posts: 435

    Shows Seen: 0

    Re: Official New Songs and Tabs Discussion

    want me to tab the new clips?
    klobb is offline   Reply With Quote
    Old 04-18-2005, 07:18 PM   #63
    klobb
    My Head is Pounding
     
    klobb's Avatar
     
    Join Date: Feb 2005
    Location: Toronto, Ontario, Canada
    Posts: 435

    Shows Seen: 0

    Re: Official New Songs and Tabs Discussion

    nvm, i didnt realise people were doing it already
    klobb is offline   Reply With Quote
    Old 04-18-2005, 07:34 PM   #64
    Popeye2003
    .
     
    Join Date: Nov 2003
    Location: Brasília - Brasil
    Posts: 18,491

    Shows Seen: 0

    Re: Official New Songs and Tabs Discussion

    I'd love to see some tabs from the new clips.
    __________________
    DMBrasil

    (sb) [HR]

    Quote:
    Originally Posted by DMBTX10101
    It's one thing to branch out. It's another to branch out right into a brick wall.
    Popeye2003 is offline   Reply With Quote
    Old 04-25-2005, 10:06 AM   #65
    pakelikaforprez
     
    pakelikaforprez's Avatar
     
    Join Date: Jul 2004
    Posts: 453

    Shows Seen: 7

    Re: Official New Songs and Tabs Discussion

    I have American baby tabbed, i guess. its rather simplistic actually. something to the likes of this...

    American Baby
    Tabbed by Pat McInnis

    You can play this with the full chords if you want.
    Audio Clip
    E-----------------------
    B-----------------------
    G------7-----6----4--4--
    D-----------------x--x--
    A----5-----4------2--2--
    E--7-----5--------3--3--

    "Stay American baby..."
    Audio Clip
    E-------------
    B-------------
    G--4----7--6--
    D--x----0--x-- Repeat
    A--2----5--4--
    E--3----7--5--

    "I hold on to you..."
    Audio Clip
    E-----------------------------------------------------
    B-----------------------------------------------------
    G-------------------6h7-6------------------6h7-6-7/9--
    D------7-9---9-----------------7-9---9----------------
    A--7-9-----7-----9---------7-9-----7-----9------------
    E--------------7-----------------------7--------------

    The jam is the same chords as the chorus, but with a different rhythm.

    * NOTE: Tabbed by Pat McInnis

    I noticed however in the video that dave plays " I hold on to you... " at the 2nd and 4th frets and not positioned at 7 and 9. When played on the 2's and 4's it also gives the ending notes a higher pitched sound like in the song.
    pakelikaforprez is offline   Reply With Quote
    Old 05-04-2005, 05:33 PM   #66
    bense27
    Smooth B
     
    bense27's Avatar
     
    Join Date: Jan 2005
    Location: Denmark
    Posts: 15,507

    Shows Seen: 7

    Re: Official New Songs and Tabs Discussion

    Quote:
    Originally Posted by dmb1spe
    Anyone have American Baby yet?
    You can find it in the boards on www.dmbtabs.com
    __________________
    -Brian
    bense27 is offline   Reply With Quote
    Old 05-04-2005, 05:34 PM   #67
    bense27
    Smooth B
     
    bense27's Avatar
     
    Join Date: Jan 2005
    Location: Denmark
    Posts: 15,507

    Shows Seen: 7

    Re: Official New Songs and Tabs Discussion

    Anybody have Die Trying yet?
    __________________
    -Brian
    bense27 is offline   Reply With Quote
    Old 05-12-2005, 02:16 AM   #68
    dmbfan101
     
    dmbfan101's Avatar
     
    Join Date: Jun 2004
    Location: Walt Disney World
    Posts: 2,556

    Shows Seen: 79

    Re: Official New Songs and Tabs Discussion

    when sheet music for "Steady as we go" and "out of my hands" are found...could someone please message me to let me know!! i'd really appreciate it!! :-)
    __________________
    Nicco
    Shows Attended . . . . . . Youtube Homepage . . . . . . Twitter . . . . . . DivingThroughTheBreeze Blog
    Quote:
    Originally Posted by CrushLive View Post
    Jake,

    You spelled canandaigua wrong both times on the news story ;). Need to add an N
    Quote:
    Originally Posted by Razorback View Post
    Affirmative Action in effect.

    /nr
    dmbfan101 is offline   Reply With Quote
    Old 05-12-2005, 11:50 PM   #69
    greenpick41
    No BS in the Studio
     
    greenpick41's Avatar
     
    Join Date: Jan 2003
    Location: WA
    Posts: 2,712

    Shows Seen: 30

    Re: Official New Songs and Tabs Discussion

    These songs are so much fun to play
    __________________
    Click the "Show Spoiler" Button to reveal hidden text.
    greenpick41 is offline   Reply With Quote
    Old 05-17-2005, 02:51 AM   #70
    sgrwill1
     
    Join Date: Mar 2005
    Location: Chicago, IL
    Posts: 80

    Shows Seen: 0

    Re: Official New Songs and Tabs Discussion

    anyone know anywhere to find these new tabs? i know it is still early yet, just wondrin. thanks!
    sgrwill1 is offline   Reply With Quote
    Old 05-17-2005, 02:53 AM   #71
    sgrwill1
     
    Join Date: Mar 2005
    Location: Chicago, IL
    Posts: 80

    Shows Seen: 0

    Re: Official New Songs and Tabs Discussion

    forget it, i got em
    sgrwill1 is offline   Reply With Quote
    Old 05-20-2005, 03:54 PM   #72
    jsprang
    Fusion
     
    jsprang's Avatar
     
    Join Date: Feb 2004
    Location: Burlington, NC
    Posts: 71

    Shows Seen: 27

    Re: Official New Songs and Tabs Discussion

    Quote:
    Originally Posted by pakelikaforprez
    "I hold on to you..."
    Audio Clip
    E-----------------------------------------------------
    B-----------------------------------------------------
    G-------------------6h7-6------------------6h7-6-7/9--
    D------7-9---9-----------------7-9---9----------------
    A--7-9-----7-----9---------7-9-----7-----9------------
    E--------------7-----------------------7--------------

    The jam is the same chords as the chorus, but with a different rhythm.

    * NOTE: Tabbed by Pat McInnis

    I noticed however in the video that dave plays " I hold on to you... " at the 2nd and 4th frets and not positioned at 7 and 9. When played on the 2's and 4's it also gives the ending notes a higher pitched sound like in the song.
    From watching the "Late Show" performance I would tab it this way:

    E---------------------------------------------------------
    B-------------------2-3-2---------------------2-3-2-3/5--
    G------2-4---4-------------------2-4---4-----------------
    D--0-4-----2-----4-----------0-4-----2-----4-------------
    A--------------2--------------------------2---------------
    E---------------------------------------------------------

    * tabbed by Jonathan Sprang

    Last edited by jsprang; 05-20-2005 at 03:58 PM.
    jsprang is offline   Reply With Quote
    Old 05-22-2005, 03:50 PM   #73
    rkn2dmb
     
    Join Date: Dec 2003
    Posts: 7

    Shows Seen: 43

    Re: Official New Songs and Tabs Discussion

    Here is the tab for Louisiana Bayou


    Intro

    E -----10--------9-------12----10--------9-------------
    B --8-------12------10--------------12-------10--------
    G ------------------------------------------------------
    D ------------------------------------------------------
    A ------------------------------------------------------
    E ------------------------------------------------------


    Listen to the song to get the variation but thats basically it




    E ----------------------------------------------------
    B ----------------------------------------------------
    G ----------------------------------------------------
    D ----------------------------------------------------
    A -----------7-----5-------------4h5p5---------------
    E --5----5---------------5----------------------------
    rkn2dmb is offline   Reply With Quote
    Old 05-22-2005, 04:04 PM   #74
    JG2121
    I dig it.
     
    JG2121's Avatar
     
    Join Date: Aug 2004
    Location: Ontario
    Posts: 610

    Shows Seen: 0

    Re: Official New Songs and Tabs Discussion

    So is anybody interested in any bass tabs for the album.
    If theres any interest, lemme know and I'll do some for you.
    JG2121 is offline   Reply With Quote
    Old 06-14-2005, 06:24 PM   #75
    HolyCow
    Cubs Win!
     
    HolyCow's Avatar
     
    Join Date: Feb 2005
    Location: Norman, Oklahoma
    Posts: 22,833

    Shows Seen: 11

    Re: Official New Songs and Tabs Discussion

    Didn't see it necessary to start a new thread for this, so i hope someone sees this here.

    On Joyride, the chorus is giving me fits.

    E:-------
    B:-------
    G:-9-----
    D:-9----- x4
    A:-9h11--
    E:-0-----

    how do you slide 9 to 11 while still staying on the G and D? I have tried everything that I can think of....it is probably something simple I ain't thinking of.

    Thanks
    __________________
    R
    HolyCow is offline   Reply With Quote
    Old 06-14-2005, 06:52 PM   #76
    Popeye2003
    .
     
    Join Date: Nov 2003
    Location: Brasília - Brasil
    Posts: 18,491

    Shows Seen: 0

    Re: Official New Songs and Tabs Discussion

    Quote:
    Originally Posted by HolyCow
    Didn't see it necessary to start a new thread for this, so i hope someone sees this here.

    On Joyride, the chorus is giving me fits.

    E:-------
    B:-------
    G:-9-----
    D:-9----- x4
    A:-9h11--
    E:-0-----

    how do you slide 9 to 11 while still staying on the G and D? I have tried everything that I can think of....it is probably something simple I ain't thinking of.

    Thanks
    It's not a slide, it's a hammer-on.
    __________________
    DMBrasil

    (sb) [HR]

    Quote:
    Originally Posted by DMBTX10101
    It's one thing to branch out. It's another to branch out right into a brick wall.
    Popeye2003 is offline   Reply With Quote
    Old 06-14-2005, 06:55 PM   #77
    Popeye2003
    .
     
    Join Date: Nov 2003
    Location: Brasília - Brasil
    Posts: 18,491

    Shows Seen: 0

    Re: Official New Songs and Tabs Discussion

    I just put in the quote what I do:

    Quote:
    Originally Posted by rkn2dmb
    Here is the tab for Louisiana Bayou

    E ------------------------------------
    B ------------------------------------
    G ------------------------------------
    D ------------------------------------
    A --------7p5--5-----4/5--5----------
    E --5--5----------5-------------------
    __________________
    DMBrasil

    (sb) [HR]

    Quote:
    Originally Posted by DMBTX10101
    It's one thing to branch out. It's another to branch out right into a brick wall.
    Popeye2003 is offline   Reply With Quote
    Old 06-14-2005, 07:45 PM   #78
    HendrixWS
     
    Join Date: Jul 2003
    Location: IL
    Posts: 13

    Shows Seen: 11

    Re: Official New Songs and Tabs Discussion

    Quote:
    Originally Posted by HolyCow
    Didn't see it necessary to start a new thread for this, so i hope someone sees this here.

    On Joyride, the chorus is giving me fits.

    E:-------
    B:-------
    G:-9-----
    D:-9----- x4
    A:-9h11--
    E:-0-----

    how do you slide 9 to 11 while still staying on the G and D? I have tried everything that I can think of....it is probably something simple I ain't thinking of.

    Thanks
    Yea h is for hammer on
    __________________
    Hey Now, All You Sinners Put Your Lights On
    Hey Now, All you Lovers Put Your Lights on
    HendrixWS is offline   Reply With Quote
    Old 06-15-2005, 12:51 AM   #79
    HolyCow
    Cubs Win!
     
    HolyCow's Avatar
     
    Join Date: Feb 2005
    Location: Norman, Oklahoma
    Posts: 22,833

    Shows Seen: 11

    Re: Official New Songs and Tabs Discussion

    Doh. What is wrong with me. Can I really be that stupid? Anyway, thanks.
    __________________
    R
    HolyCow is offline   Reply With Quote
    Old 06-29-2005, 12:55 PM   #80
    Seaner815
     
    Join Date: Sep 2003
    Posts: 9

    Shows Seen: 0

    Re: Official New Songs and Tabs Discussion

    Does Anyone happen to know the Chords, that Dave PLays on the piano, in steady as we go?! I've been Trying to figure out the bass notes but as usual the bass has no mid! Damnit Mark Just Stick to The Hip HOp scene!
    Seaner815 is offline   Reply With Quote
    Old 07-07-2005, 11:25 AM   #81
    GruvnDMBRiddims
     
    GruvnDMBRiddims's Avatar
     
    Join Date: Jun 2004
    Location: Houston/Dallas, Texas
    Posts: 845

    Shows Seen: 33

    Re: Official New Songs and Tabs Discussion

    Quote:
    Originally Posted by Seaner815
    Does Anyone happen to know the Chords, that Dave PLays on the piano, in steady as we go?! I've been Trying to figure out the bass notes but as usual the bass has no mid! Damnit Mark Just Stick to The Hip HOp scene!
    Hopefully we'll see a P/V/G or V/G (note-for-note, tablature) books out soon for Stand Up! I know I'm looking forward to the books just for SAWG, OOMH, AB-Intro, EWU
    I'll try and contact the publishing company that did all the other books and ask if they have any plans on releasing it soon.
    __________________
    Looking to connect with musicians/producers in Dallas/Houston
    GruvnDMBRiddims is offline   Reply With Quote
    Old 07-13-2005, 01:15 PM   #82
    demar727
     
    Join Date: Jul 2004
    Posts: 4,357

    Shows Seen: 23

    Re: Official New Songs and Tabs Discussion

    after seeing all of the Hunger for the great light tabs start off as... i noticed on the screens during many shows that he plays it like this..

    the wrong way
    --3------3------------
    -----1---------2------
    ------------2--2------
    -----2------3--2------
    --2--3--2---3---------
    --3-----3---1---------

    the right way (from what i seen)
    --3--3---3-------------
    -----------------2-----
    -------------2---2-----
    -----2---2---3---2-----
    --2--3---3---3---------
    --3----------1---------

    tell me what you all think... thanks
    demar727 is offline   Reply With Quote
    Old 07-13-2005, 01:43 PM   #83
    Popeye2003
    .
     
    Join Date: Nov 2003
    Location: Brasília - Brasil
    Posts: 18,491

    Shows Seen: 0

    Re: Official New Songs and Tabs Discussion

    Code:
    e--------------------
    b--------------------
    g-----------2--2-----
    d-3--3-2--2-2--2-----
    a-3--3-2--2-0--0-----
    E-1--1-0--0------3-2-
    __________________
    DMBrasil

    (sb) [HR]

    Quote:
    Originally Posted by DMBTX10101
    It's one thing to branch out. It's another to branch out right into a brick wall.

    Last edited by Popeye2003; 07-13-2005 at 01:44 PM.
    Popeye2003 is offline   Reply With Quote
    Old 07-14-2005, 02:07 PM   #84
    lieinmygrave41
    Sunday comes afterwards
     
    lieinmygrave41's Avatar
     
    Join Date: Feb 2005
    Location: Portland
    Posts: 10,978

    Shows Seen: 24

    Re: Official New Songs and Tabs Discussion

    I know someone had already added this, but this is my personal transcription of Sugar Will, its a great song by the way... sorry about the weird spacing, I tried to fix it, but Its kinda weird...
    Dave Matthews Band - Sugar Will

    Tuning: Standard (E A D G B E)

    Intro: (i think its 7/8 timing)
    E|------------------------------------||
    B|------------------------------------|| *Repeat until verse*
    G|-----------9------------9-----------||
    D|--10---9--10---9--10--10---9-------||
    A|--12--12------12--12-------12------||
    E|-------------------------------------||


    Verse: (3:49) (5:01) (6:13)
    E|------------------|--------------------|------------------|------------------
    B|------------------|--------------------|------8-----8-----|------6-----6------
    G|------5-----5----|------9------9------|--9-7---7-9---7-9-|--7-5---5-7---7-5-
    D|--7-5---5-7---5--|-10-9---9-10---10-9-|-10---------------|-8---------------
    A|--8-------------8|-12-----------------|------------------|------------------
    E|------------------|--------------------|------------------|------------------


    Fill: (before chorus)
    E|---------------------|---------------------||
    B|---------------------|---------------------||
    G|--------5------------|---------7-----------|| *Roll into chorus*
    D|--7--5-----4--2--4---|---9--7-----6-4-6---|
    A|--8--------5--5--5---|--10--------7-------||
    E|---------------------|---------------------||


    Chorus: (weird timing, 7/8, then 4/4, then back to 7/8)
    E|----------------|----------------|----------------|----------------||
    B|----------------|----------------|----------------|----------------||
    G|-----2-----2----|-----0-----0----|-----5-----5--- ------2-----2----||
    D|-3-2---2-3---2--|-2-0---0-2---0---7-5---5-7---5-|-3-2---2-3---2--||
    A|-5--------------|-3--------------|-8--------------|-5--------------||
    E|----------------|----------------|----------------|----------------||


    2nd time around(in chorus), skip last bar and play: (4/4 timing)
    E|----------------||
    B|----------------||
    G|-----2-----2----||
    D|-3-2---2-3---2-3|| *go back to fill*
    A|-5--------------||
    E|----------------||

    2nd fill: (7/8 timing)
    E|----------------||
    B|----------------||
    G|------9------9--|| *repeat*
    D|-10-9---9-10---9||
    A|----------------||
    E|----------------||

    Jam: (i cant quite get the chord but its similar to this)

    E|---0------------||
    B|--10------------||
    G|---9------------||
    D|--10------------||
    A|--12------------||
    E|---x------------||

    there you go. I tabbed it out months ago, but I havent been to this thread and blah blah blah. I hope its accurate. I never saw a video of the song, so I tabbed it out by ear...
    __________________
    RYM / Gorge 2022 / Hollywood Bowl 2022

    Last edited by lieinmygrave41; 07-14-2005 at 02:09 PM.
    lieinmygrave41 is offline   Reply With Quote
    Old 08-01-2005, 12:49 AM   #85
    UKexile
    Registered User
     
    Join Date: Aug 2005
    Posts: 1

    Shows Seen: 0

    Re: Official New Songs and Tabs Discussion

    I am learning to play the bass and love DMB. Can someone give me the bass tabs to Dream Girl, if you want to add any simple DMB bass tabs too i would appreciate it. Thanks
    UKexile is offline   Reply With Quote
    Old 08-01-2005, 01:16 AM   #86
    DaveMBFan
     
    Join Date: Feb 2003
    Posts: 369

    Shows Seen: 4

    Re: Official New Songs and Tabs Discussion

    Quote:
    Originally Posted by UKexile
    I am learning to play the bass and love DMB. Can someone give me the bass tabs to Dream Girl, if you want to add any simple DMB bass tabs too i would appreciate it. Thanks

    the best place to look would be www.Dmbtabs.com they have the most accurate tabs out there. And for the newer songs go to the message board section on Dmbtabs.com and you should find it on there and if you dont find what you are looking for after a search then post something and im sure someone will be glad to help you.

    peace and good luck
    __________________
    Hey my friend it seems you eyes are troubled , care to share your time with me...
    DaveMBFan is offline   Reply With Quote
    Old 08-05-2005, 01:44 AM   #87
    demar727
     
    Join Date: Jul 2004
    Posts: 4,357

    Shows Seen: 23

    Re: Official New Songs and Tabs Discussion

    Louisiana Bayou tab for the "Shame Shame" part

    i know Dave doesnt play it.. but Stefan does.. what are the tabs for it? thanks
    demar727 is offline   Reply With Quote
    Old 08-06-2005, 02:15 AM   #88
    lieinmygrave41
    Sunday comes afterwards
     
    lieinmygrave41's Avatar
     
    Join Date: Feb 2005
    Location: Portland
    Posts: 10,978

    Shows Seen: 24

    Re: Official New Songs and Tabs Discussion

    he plays it in studio, I know that, but I don't know the tabs, sorry
    __________________
    RYM / Gorge 2022 / Hollywood Bowl 2022
    lieinmygrave41 is offline   Reply With Quote
    Old 09-13-2005, 11:31 PM   #89
    eric1786
     
    Join Date: Aug 2004
    Location: Cincinnati
    Posts: 423

    Shows Seen: 38

    Re: Official New Songs and Tabs Discussion

    anyone have dream girl tabbed out? thanks
    __________________
    ~Eric

    Slowly arriving, but never on time...
    eric1786 is offline   Reply With Quote
    Old 09-16-2005, 02:07 AM   #90
    robertjohnsmith
    1946.....beloved son
     
    Join Date: Nov 2002
    Location: SF
    Posts: 700

    Shows Seen: 9

    Re: Official New Songs and Tabs Discussion

    i'd love to see someone's take on #34 from a video from the summer...
    rjs
    __________________
    I need so
    To stay in your arms, see you smile, hold you close
    robertjohnsmith is offline   Reply With Quote
    Reply

    Thread Tools
    Display Modes

    Posting Rules
    You may not post new threads
    You may not post replies
    You may not post attachments
    You may not edit your posts

    BB code is On
    Smilies are On
    [IMG] code is Off
    HTML code is Off

    Forum Jump


    Want to hide all ads on Ants? Click here

    All times are GMT -4. The time now is 06:09 PM.


    Powered by vBulletin® Version 3.8.6
    Copyright ©2000 - 2022, Jelsoft Enterprises Ltd.


       
    Site LinksAbout AntsAnts MobileTweet Tweet
    Home
    Ants+
    Tour Central
    Search bar
    RSS Feeds
    About Us
    Contact Us
    The Ants Blog
    Advertise on Ants
    Privacy Policy
    Ants on your cell phone
    iAnts
    mobile news
    mobile setlists
    antslive!
    Ants' Twitter
    DMBLive Twitter
    Ants Facebook
    Ants Instagram