Virginia In The Rain - Page 5 - Antsmarching.org Forums

Go Back   Antsmarching.org Forums > General Discussion > DMBc Discussion > Come Tomorrow


Want to hide all ads on Ants? Click here
Reply
 
Thread Tools Display Modes
Old 07-24-2019, 09:14 AM   #121
jimmything014
 
Join Date: Dec 2005
Location: northwest pa
Posts: 818

Shows Seen: 47

Re: Virginia In The Rain

Anyone tab out the way Dave plays this on guitar?
__________________
2015 shows: SPAC 7/3,7/4
2016 shows: Blossom 5/21, SPAC 7/15, 7/16
2018 shows: SPAC 7/13-14, Columbus 11/27
2019 show: CMAC 6/18
jimmything014 is online now   Reply With Quote

  • Want to hide all ads on Ants? Click here
  • Old 07-24-2019, 03:54 PM   #122
    kelchlsm
     
    kelchlsm's Avatar
     
    Join Date: Oct 2011
    Posts: 3,324

    Shows Seen: 19

    Re: Virginia In The Rain

    I haven't tried playing it so I could be way off, and im terrible at writing tabs- but I think its just

    --1--1--1--x
    --1--1--1--1
    --2--1--1--0
    --3--2--1--2
    --x--x--x--3
    --x--x--x--x

    For the verse.

    And then the chorus is Gm, F, Dm, C- and I don't know the exact run up he does before the Gm
    kelchlsm is offline   Reply With Quote
    Old 07-27-2019, 10:20 AM   #123
    LaLaLaLaHey
     
    LaLaLaLaHey's Avatar
     
    Join Date: Jul 2016
    Posts: 2,880

    Shows Seen: 9

    Re: Virginia In The Rain

    Quote:
    Originally Posted by jimmything014 View Post
    Anyone tab out the way Dave plays this on guitar?
    Just submitted one to Ultimate Guitar but here it is:

    Code:
    Dave Matthews Band
    Virginia in the Rain
    
    Watch the Live from Jiffy Lube stream at 3:00:20 to learn the strumming pattern.
    https://youtu.be/wY3hwEVCong?t=10844
    
    Uses a palm mute technique with a very specific rhythm.
    Mostly hits on the bass notes and occasionally hits the C (first fret on the B string) as an accent note.
    
    
    Verse
    
    Chord Shapes:
    
    e|---|---|---|---|
    B|-1-|-1-|-1-|-1-|
    G|-3-|-2-|-1-|-0-|
    D|-3-|-3-|-3-|-2-|
    A|---|---|---|-3-|
    E|---|---|---|---|
    
    
    
    Approximate mirror of what he does, but listen to rhythm to properly play:
    
    e|---------------|---------------|
    B|---1-1------1--|---1-1------1--|
    G|-3-3---3----3--|-2-----2----2--|
    D|-3-------3--3--|-3-------3--3--|
    A|---------------|---------------|
    E|---------------|---------------|
    
    e|---------------|-------------|
    B|---1-1------1--|---1------1--|
    G|-1-1---1----1--|-0---0----0--|
    D|-3-------3--3--|-2-----2--2--|
    A|---------------|-3--------3--|
    E|---------------|-------------|
    
    
    
    Chorus
    
    e|-x-|-x-|-(1)-|---|
    B|-x-|-x-|--3--|-1-|
    G|-3-|-2-|--2--|-0-|
    D|-0-|-3-|--0--|-2-|
    A|-1-|-3-|-----|-3-|
    E|-3-|-1-|-----|---|
    
    
    
    ******************
    *     Legend
    *
    * x   Dead note
    * ()  Ghost note (played on occasion)
    *
    ******************
    __________________
    The future is no place to place your better days.
    LaLaLaLaHey is offline   Reply With Quote
    Old 07-30-2019, 08:23 AM   #124
    jimmything014
     
    Join Date: Dec 2005
    Location: northwest pa
    Posts: 818

    Shows Seen: 47

    Re: Virginia In The Rain

    Quote:
    Originally Posted by jake.sager View Post
    Just submitted one to Ultimate Guitar but here it is:

    Code:
    Dave Matthews Band
    Virginia in the Rain
    
    Watch the Live from Jiffy Lube stream at 3:00:20 to learn the strumming pattern.
    https://youtu.be/wY3hwEVCong?t=10844
    
    Uses a palm mute technique with a very specific rhythm.
    Mostly hits on the bass notes and occasionally hits the C (first fret on the B string) as an accent note.
    
    
    Verse
    
    Chord Shapes:
    
    e|---|---|---|---|
    B|-1-|-1-|-1-|-1-|
    G|-3-|-2-|-1-|-0-|
    D|-3-|-3-|-3-|-2-|
    A|---|---|---|-3-|
    E|---|---|---|---|
    
    
    
    Approximate mirror of what he does, but listen to rhythm to properly play:
    
    e|---------------|---------------|
    B|---1-1------1--|---1-1------1--|
    G|-3-3---3----3--|-2-----2----2--|
    D|-3-------3--3--|-3-------3--3--|
    A|---------------|---------------|
    E|---------------|---------------|
    
    e|---------------|-------------|
    B|---1-1------1--|---1------1--|
    G|-1-1---1----1--|-0---0----0--|
    D|-3-------3--3--|-2-----2--2--|
    A|---------------|-3--------3--|
    E|---------------|-------------|
    
    
    
    Chorus
    
    e|-x-|-x-|-(1)-|---|
    B|-x-|-x-|--3--|-1-|
    G|-3-|-2-|--2--|-0-|
    D|-0-|-3-|--0--|-2-|
    A|-1-|-3-|-----|-3-|
    E|-3-|-1-|-----|---|
    
    
    
    ******************
    *     Legend
    *
    * x   Dead note
    * ()  Ghost note (played on occasion)
    *
    ******************
    This is great, thank you! Really loving this solo performance from Bristow. I used to play a lot of guitar but dont anymore. This strumming pattern is awesome but also made my forearm extremely tired haha.
    __________________
    2015 shows: SPAC 7/3,7/4
    2016 shows: Blossom 5/21, SPAC 7/15, 7/16
    2018 shows: SPAC 7/13-14, Columbus 11/27
    2019 show: CMAC 6/18
    jimmything014 is online now   Reply With Quote
    Old 06-08-2020, 10:35 PM   #125
    Millstone
     
    Join Date: May 2009
    Location: Port Colborne, ON
    Posts: 500

    Shows Seen: 0

    Re: Virginia In The Rain

    Quote:
    Originally Posted by hmich176 View Post
    Some people think Proudest Monkey is boring, too.
    it is too
    __________________
    "You should have waited, bc Everyday was not the fucking answer" -Steve Lillywhite, May 2020
    Millstone is offline   Reply With Quote
    Reply

    Thread Tools
    Display Modes

    Posting Rules
    You may not post new threads
    You may not post replies
    You may not post attachments
    You may not edit your posts

    BB code is On
    Smilies are On
    [IMG] code is Off
    HTML code is Off

    Forum Jump


    Want to hide all ads on Ants? Click here

    All times are GMT -4. The time now is 02:39 PM.


    Powered by vBulletin® Version 3.8.6
    Copyright ©2000 - 2021, Jelsoft Enterprises Ltd.


       
    Site LinksAbout AntsAnts MobileTweet Tweet
    Home
    Ants+
    Tour Central
    Search bar
    RSS Feeds
    About Us
    Contact Us
    The Ants Blog
    Advertise on Ants
    Privacy Policy
    Ants on your cell phone
    iAnts
    mobile news
    mobile setlists
    antslive!
    Ants' Twitter
    DMBLive Twitter
    Ants Facebook
    Ants Instagram