Official New Songs and Tabs Discussion - Page 11 - Antsmarching.org Forums

Go Back   Antsmarching.org Forums > General Discussion > Musician Discussion


Want to hide all ads on Ants? Click here
Reply
 
Thread Tools Display Modes
Old 11-12-2021, 03:52 AM   #301
dpduke5173
 
dpduke5173's Avatar
 
Join Date: Apr 2011
Location: Raleigh, NC
Posts: 6,090

Shows Seen: 69

Re: Official New Songs and Tabs Discussion

Just learned the bridge part for Madman’s Eyes. That last descending lick took me a bit to get.


E—————————————————————————————————————-
b————————————————————————————————————
g——————————————————————————————-——————————-
d———————8———————————9 10———————8 ——————— —10 7 9–
a————9 10——10-9————9 10————————9 10——10 9———9 10——-
e——7——————————7——————————7—————————7——————


E——————————————————————————————
b———————————————————————————————
g——————————————————————————————-
d—————————9 10—7 9————7——————————
a——————9 10———————10———9 10—7 9———————
e————7——————————————————————————-
__________________
2021: Raleigh, Charlotte, Columbia, & Va Beach

Last edited by dpduke5173; 11-12-2021 at 03:57 AM.
dpduke5173 is offline   Reply With Quote

  • Want to hide all ads on Ants? Click here
  • Old 11-12-2021, 03:59 AM   #302
    dpduke5173
     
    dpduke5173's Avatar
     
    Join Date: Apr 2011
    Location: Raleigh, NC
    Posts: 6,090

    Shows Seen: 69

    Re: Official New Songs and Tabs Discussion

    Sorry for the sloppiness but should be correct. The lick above goes back into the Intro verse lick on previous page.

    E—————————————————————————————————————-—————-
    b————————————————————————————————————————-———
    g——————————————————————————————-——————————-——-
    d———————8———————————9 10———————8 ——————— 10 7 9
    a————9 10——10-9————9 10————————9 10——10 9———9 10—————————-
    e——7——————————7——————————7—————————7—————————— —-
    __________________
    2021: Raleigh, Charlotte, Columbia, & Va Beach

    Last edited by dpduke5173; 11-12-2021 at 04:03 AM.
    dpduke5173 is offline   Reply With Quote
    Old 11-12-2021, 04:10 AM   #303
    dpduke5173
     
    dpduke5173's Avatar
     
    Join Date: Apr 2011
    Location: Raleigh, NC
    Posts: 6,090

    Shows Seen: 69

    Re: Official New Songs and Tabs Discussion

    Replace all the 8’s with 9’s on the D string for the bridge part above
    __________________
    2021: Raleigh, Charlotte, Columbia, & Va Beach
    dpduke5173 is offline   Reply With Quote
    Old 11-14-2021, 09:54 PM   #304
    crounsa810
     
    crounsa810's Avatar
     
    Join Date: Feb 2009
    Location: PA
    Posts: 3,933

    Shows Seen: 21

    Re: Official New Songs and Tabs Discussion

    Quote:
    Originally Posted by dpduke5173 View Post
    Sorry for the sloppiness but should be correct. The lick above goes back into the Intro verse lick on previous page.

    E覧覧覧覧覧覧覧覧覧覧覧覧覧覧覧覧覧覧-覧覧-
    b覧覧覧覧覧覧覧覧覧覧覧覧覧覧覧覧覧覧覧覧-覧
    g覧覧覧覧覧覧覧覧覧覧覧覧覧覧覧-覧覧覧覧覧-覧-
    d覧覧覧8覧覧覧覧覧9 10覧覧覧8 覧覧覧 10 7 9
    a覧覧9 10覧10-9覧覧9 10覧覧覧覧9 10覧10 9覧9 10覧覧覧覧-
    e覧7覧覧覧覧覧7覧覧覧覧覧7覧覧覧覧7覧覧覧覧覧-
    That's definitely a difficult one to get down. Any idea of the verse/chorus chords?
    __________________
    Still waiting to see: Dreaming Tree, Spoon, Cry Freedom, Busted Stuff, Captain, Black and Bluebird, #40, Break For It, Let You Down, Kit Kat Jam, If I Had It All, Sleep to Dream Her, Hello Again, Smooth Rider, Old Dirt Hill, Crazy Easy, Sweet Up & Down, Little Red Bird, Beach Ball, Loving Wings, The Only Thing, Walk Around the Moon
    crounsa810 is offline   Reply With Quote
    Old 11-17-2021, 01:14 AM   #305
    younevrknow
     
    younevrknow's Avatar
     
    Join Date: May 2003
    Location: St. Louis, MO
    Posts: 1,651

    Shows Seen: 90

    Re: Official New Songs and Tabs Discussion

    Here's my take:
    Code:
    Intro
    E|-------------|-------------|-------------------------|
    B|-------------|-------------|-------------------------|
    G|-------------|-------------|-------------------------|
    D|--7----------|--7----------|--7-------6-7-6----------|
    A|----8-7-7-7--|----8-7-7-7--|----8-7-8-------8-7-7-7--|
    E|-------------|-------------|-------------------------|
    
    Verse ("Little Billy's got a gun...")
    E|-----|-------------|-------------|-------------------------|
    B|-----|-------------|-------------|-------------------------|
    G|--10--|-------------|-------------|-------------------------|
    D|--x---|--7----------|--7----------|--7-------6-7-6----------|
    A|--8---|----8-7-7-7--|----8-7-7-7--|----8-7-8-------8-7-7-7--|
    E|------|-------------|-------------|-------------------------|
    
    Pre-Chorus ("Is this real? Is this make believe?...")
    E|----|-----|-----|-----|
    B|----|-----|-----|-----|
    G|--7--|--6--|--7--|--6--|
    D|--x--|--x--|--x--|--x--|
    A|--5--|--4--|--5--|--4--|
    E|-----|-----|-----|-----|
    
    Chorus* ("I'm afraid...")
    E|--------------------|
    B|-2----------2-------|
    G|--2----------2-------|
    D|--2----------2-------|
    A|---------------------|
    E|-----3-2--3-----3-2--|
    
    Post-Chorus/Bridge
    E|----------------------------|-------------------------------|
    B|----------------------------|-------------------------------|
    G|----------------------------|-----------------------7-------|
    D|--------9-------------9-10--|---------9---------------9-10--|
    A|---9-10---10-9---9-10-------|----9-10---10-9---9-10---------|
    E|--7------------7------------|--7-------------7--------------|
    
    E|----------------------------------------------|
    B|----------------------------------------------|
    G|----------------------------------------------|
    D|--------9-------------9-10-7-9----7-----------|
    A|---9-10---10-9---9-10----------10---8-10-7-8--|
    E|--7------------7------------------------------|
    
    E|-------------|-------------|-------------------------|
    B|-------------|-------------|-------------------------|
    G|-------------|-------------|-------------------------|
    D|--7----------|--7----------|--7-------6-7-6----------|
    A|----8-7-7-7--|----8-7-7-7--|----8-7-8-------8-7-7-7--|
    E|-------------|-------------|-------------------------|
    
    End
    E|-------|
    B|----2--|
    G|-----2--|
    D|-----2--|
    A|--------|
    E|--3-----|
    
    *Dave does not play during the chorus, but this is the basic progression
    __________________
    turns out not where but who you're with that really matters
    younevrknow is offline   Reply With Quote
    Reply

    Thread Tools
    Display Modes

    Posting Rules
    You may not post new threads
    You may not post replies
    You may not post attachments
    You may not edit your posts

    BB code is On
    Smilies are On
    [IMG] code is Off
    HTML code is Off

    Forum Jump


    Want to hide all ads on Ants? Click here

    All times are GMT -4. The time now is 04:15 AM.


    Powered by vBulletin® Version 3.8.6
    Copyright ©2000 - 2021, Jelsoft Enterprises Ltd.


       
    Site LinksAbout AntsAnts MobileTweet Tweet
    Home
    Ants+
    Tour Central
    Search bar
    RSS Feeds
    About Us
    Contact Us
    The Ants Blog
    Advertise on Ants
    Privacy Policy
    Ants on your cell phone
    iAnts
    mobile news
    mobile setlists
    antslive!
    Ants' Twitter
    DMBLive Twitter
    Ants Facebook
    Ants Instagram