Official New Songs and Tabs Discussion - Antsmarching.org Forums

Go Back   Antsmarching.org Forums > General Discussion > Musician Discussion


Want to hide all ads on Ants? Click here
Reply
 
Thread Tools Display Modes
Old 06-18-2004, 01:19 PM   #1
DaveMBFan
 
Join Date: Feb 2003
Posts: 369

Shows Seen: 4

Official New Songs and Tabs Discussion

Hey as most of u guys are aware Dave and the boys are startin to play their new songs for the tour. I was just wonderin how long we will have to wait before people start to get an idea of tabs for these new songs. thanx
DaveMBFan is offline   Reply With Quote

  • Want to hide all ads on Ants? Click here
  • Old 06-18-2004, 01:32 PM   #2
    AcE25
    Still here dancing...
     
    Join Date: Apr 2002
    Location: Rockford, IL
    Posts: 510

    Shows Seen: 13

    Re: New song tabs?

    probably til there are several copies available to tab from, and maybe a video to help out.

    I'm gonna try to tape the show in chicago tonight to try to tab the new songs, or maybe some more new songs.
    AcE25 is offline   Reply With Quote
    Old 06-18-2004, 01:50 PM   #3
    unccrombie
    HairSlkdBakWayfarersOn
     
    unccrombie's Avatar
     
    Join Date: Jan 2003
    Posts: 43,322

    Shows Seen: 45

    Re: New song tabs?

    give it at least 3 weeks
    unccrombie is offline   Reply With Quote
    Old 06-18-2004, 02:41 PM   #4
    TheBigCaptain
    Old Iron Sides
     
    TheBigCaptain's Avatar
     
    Join Date: Jan 2002
    Location: TX
    Posts: 560

    Shows Seen: 0

    Re: New song tabs?

    someone posted this earlier for joy ride

    verse-320033 x3 032033 020033 320033 x3 032033 020033 032033
    chorus- E and A maybe
    TheBigCaptain is offline   Reply With Quote
    Old 06-18-2004, 02:45 PM   #5
    41ravens
    Now We Go
     
    41ravens's Avatar
     
    Join Date: Sep 2002
    Posts: 24,426

    Shows Seen: 27

    Re: New song tabs?

    hello again sounds like variations of G C and F for the verses, then F Bb for the pre-chorus or bridge, whatever it is

    Joy Ride is basically Rapunzel for the verse
    A-----5---3--2
    you can figure the rhythm (sp?) by listening to it
    then it sounds like E A for the chorus

    that's all I've gotten so far for these and I don't even know if they're right but hopefully someone can take it farther. A video would probably help a lot.
    __________________
    Adam

    Thank you. Thank you for your honesty.
    Now fuck off and die, you fucked up slag.
    41ravens is offline   Reply With Quote
    Old 06-18-2004, 03:39 PM   #6
    winglet82
     
    winglet82's Avatar
     
    Join Date: Nov 2002
    Location: New jersey
    Posts: 314

    Shows Seen: 6
    Send a message via AIM to winglet82

    Re: New song tabs?

    How about less than 17 hours after they were played? Is that soon enough for you?

    New Song 1 (Crazy-Easy)
    Dave Matthews Band
    Unreleased

    Intro

    e|-----------|-----------|
    b|-----------|-----------|
    g|-----------|-----------|
    d|-2-----4-4-|-2-----2-2-| x2
    a|-0-----2-2-|-0-2-5-0-0-|
    E|---3-2-----|---3-2-----|

    Verse

    e|-4-|-4-|-4-|---|
    b|-4-|-4-|-4-|-4-|
    g|-4-|-4-|-4-|-4-|
    d|-6-|-4-|-2-|-4-|
    a|---|---|---|-2-|
    E|---|---|---|---|

    Chorus

    e|---|---|---|---|
    b|---|---|-3-|-2-|
    g|-4-|-4-|-2-|-2-|
    d|-x-|-x-|-0-|-2-|
    a|-2-|-2-|---|-0-|
    E|-3-|-3-|---|---|


    New Song 2 (Joy Ride)
    Dave Matthews Band
    Unreleased

    Intro

    e|-3-3-3-3-3-|-3-3-3-3-3-3-|
    b|-3-3-3-3-3-|-3-3-3-3-3-3-|
    g|-0-0-0-0-0-|-0-0-0-0-0-0-|
    d|-0-0-0-x-0-|-0-0-0-x-0-x-|
    a|-x-x-x-3-2-|-x-x-x-3-2-3-|
    E|-3-3-3-----|-3-3-3-------|

    Verse

    e|-3-3-3-3-3-|-3-3-3-3-3-3-|
    b|-3-3-3-3-3-|-3-3-3-3-3-3-|
    g|-0-0-0-0-0-|-0-0-0-0-0-0-|
    d|-0-0-0-x-0-|-0-0-0-x-0-x-|
    a|-x-x-x-3-2-|-x-x-x-3-2-3-|
    E|-3-3-3-----|-3-3-3-------|

    e|-3-3-3-3-3-|-3-3-3-3-x-1-x-1-x-1-x-1-|
    b|-3-3-3-3-3-|-3-3-3-3-x-1-x-1-x-1-x-1-|
    g|-0-0-0-0-0-|-0-0-0-0-x-2-x-2-x-2-x-2-|
    d|-0-0-0-x-0-|-0-0-0-x-x-3-x-3-x-3-x-3-|
    a|-x-x-x-3-2-|-x-x-x-3-x-3-x-3-x-3-x-3-|
    E|-3-3-3-----|-3-3-3---x-1-x-1-x-1-x-1-|

    1st Chorus

    e|-0-|-0-|
    b|-0-|-2-|
    g|-1-|-2-|
    d|-2-|-2-|
    a|-2-|-0-|
    E|-0-|---|

    e|---------|---------|
    b|---------|---------|
    g|---------|---------|
    d|-2-2-4-4-|-5-5-3-3-|
    a|-2-2-x-x-|-x-x-x-x-|
    E|-0-0-2-2-|-3-3-1-1-|

    2nd Chorus

    e|-0-|-0-|
    b|-0-|-2-|
    g|-1-|-2-|
    d|-2-|-2-|
    a|-2-|-0-|
    E|-0-|---|

    e|---------|---------|
    b|---------|---------|
    g|---------|---------|
    d|---------|---------| (repeat)
    a|-2-2-4-4-|-5-5-3-3-|
    E|-0-0-2-2-|-3-3-1-1-|

    Bridge (6/8 time)

    e|-0-|-3-|-0-|-0-|-1-|-0-|---|---|
    b|-1-|-3-|-1-|-3-|-1-|-1-|-3-|-3-|
    g|-0-|-0-|-2-|-0-|-2-|-0-|-3-|-2-|
    d|-2-|-0-|-2-|-2-|-3-|-2-|-3-|-0-|
    a|-3-|-2-|-0-|-2-|-3-|-3-|-1-|---|
    E|---|-3-|---|-0-|-1-|---|---|---|

    e|-0-|-3-|-0-|-0-|-1-|-0-|---|---|-0-|-0-|
    b|-1-|-3-|-1-|-3-|-1-|-1-|-3-|-3-|-2-|-2-|
    g|-0-|-0-|-2-|-0-|-2-|-0-|-3-|-2-|-2-|-2-|
    d|-2-|-0-|-2-|-2-|-3-|-2-|-3-|-0-|-2-|-2-|
    a|-3-|-2-|-0-|-2-|-3-|-3-|-1-|---|-0-|-0-|
    E|---|-3-|---|-0-|-1-|---|---|---|---|---|



    New Song 3 (Hello Again)
    Dave Matthews Band
    Unreleased

    Intro/Verse

    e|---3---3-|---3---3-|---0---0-|---3---3-|
    b|---3---3-|---3---3-|---1---1-|---3---3-|
    g|---0-3-0-|---0-3-0-|---0-3-0-|---0-3-0-|
    d|---0---0-|---0---0-|---2-----|---0---0-|
    a|---x-----|---x-----|-3-3-----|---x-----|
    E|-3-3-----|-3-3-----|---------|-3-3-----|

    Chorus

    e|---------|---------|-0-0-----|----------------|
    b|-3-3-----|-3-3-----|-1-1-----|-3-3------------|
    g|-3-3-----|-3-3-----|-0-0-----|-3-3------------|
    d|-0-0-3-5-|-0-0-3-5-|-2-2-3-5-|-0-0-(rest)-3-5-|
    a|-x-x-3-5-|-x-x-3-5-|-3-3-3-5-|-x-x--------3-5-|
    E|-3-3-1-3-|-3-3-1-3-|-----1-3-|-3-3--------1-3-|

    e|-----------------|-----------------|
    b|-----------------|-----------------|
    g|-----------------|-----------------|
    d|-3-3-3-3-3-3-3-3-|-3-3-3-3-3-3-3-3-|
    a|-3-3-3-3-3-3-3-3-|-3-3-3-3-3-3-3-3-|
    E|-1-1-1-1-1-1-1-1-|-1-1-1-1-1-1-1-1-|

    e|-----------------|-----------------|
    b|-----------------|-----------------|
    g|-8-8-8-8-8-8-8-8-|-8-8-8-8-8-8-8-8-|
    d|-x-x-x-x-x-x-x-x-|-x-x-x-x-x-x-x-x-|
    a|-6-6-6-6-6-6-6-6-|-6-6-6-6-6-6-6-6-|
    E|-----------------|-----------------|

    e|-----------------|-----------------|
    b|-----------------|-----------------|
    g|-----------------|-----------------|
    d|-3-3-3-3-3-3-3-3-|-3-3-3-3-3-3-3-3-|
    a|-3-3-3-3-3-3-3-3-|-3-3-3-3-3-3-3-3-|
    E|-1-1-1-1-1-1-1-1-|-1-1-1-1-1-1-1-1-|

    e|-----------------|-----------------|
    b|-----------------|-----------------|
    g|-8-8-8-8-8-8-8-8-|-8-8-8-8-8-8-8-8-|
    d|-x-x-x-x-x-x-x-x-|-x-x-x-x-x-x-x-x-|
    a|-6-6-6-6-6-6-6-6-|-6-6-6-6-6-6-6-6-|
    E|-----------------|-----------------|

    e|---|-1-|-2-|
    b|-3-|-2-|-3-|
    g|-3-|-3-|-2-|
    d|-3-|-0-|-0-|
    a|-1-|---|---|
    E|---|---|---|



    haven't done the 4th song yet, I'll try to get it done tongiht or tomorrow sometime.
    winglet82 is offline   Reply With Quote
    Old 06-18-2004, 03:40 PM   #7
    winglet82
     
    winglet82's Avatar
     
    Join Date: Nov 2002
    Location: New jersey
    Posts: 314

    Shows Seen: 6
    Send a message via AIM to winglet82

    Re: New song tabs?

    you might want to copy and paste those into notepad so the spacing is right. Any way to space it correctly on these boards?
    winglet82 is offline   Reply With Quote
    Old 06-18-2004, 03:51 PM   #8
    unccrombie
    HairSlkdBakWayfarersOn
     
    unccrombie's Avatar
     
    Join Date: Jan 2003
    Posts: 43,322

    Shows Seen: 45

    Re: New song tabs?

    ^ use the [.code] [/code.] tags, just take out the "."
    unccrombie is offline   Reply With Quote
    Old 06-18-2004, 04:03 PM   #9
    TheBigCaptain
    Old Iron Sides
     
    TheBigCaptain's Avatar
     
    Join Date: Jan 2002
    Location: TX
    Posts: 560

    Shows Seen: 0

    Re: New song tabs?

    i love you
    TheBigCaptain is offline   Reply With Quote
    Old 06-19-2004, 03:16 AM   #10
    HendrixWS
     
    Join Date: Jul 2003
    Location: IL
    Posts: 13

    Shows Seen: 11
    Send a message via AIM to HendrixWS

    Re: New song tabs?

    Just got back from the show at Tweeter in IL. Those tabs aren't correct. I dont have accurate tabbing because I was too busy enjoying the show to think about it but I know those tabs aren't right.
    __________________
    Hey Now, All You Sinners Put Your Lights On
    Hey Now, All you Lovers Put Your Lights on
    HendrixWS is offline   Reply With Quote
    Old 06-19-2004, 03:29 AM   #11
    HendrixWS
     
    Join Date: Jul 2003
    Location: IL
    Posts: 13

    Shows Seen: 11
    Send a message via AIM to HendrixWS

    Re: New song tabs?

    No disrespect for the time that was put in but I just dont think they're right.
    __________________
    Hey Now, All You Sinners Put Your Lights On
    Hey Now, All you Lovers Put Your Lights on
    HendrixWS is offline   Reply With Quote
    Old 06-19-2004, 04:29 AM   #12
    Haiku Jimi
     
    Haiku Jimi's Avatar
     
    Join Date: Apr 2002
    Posts: 20,836

    Shows Seen: 7

    Re: New song tabs?

    I think HendrixWS might think they're not right
    __________________
    Cause in the darkness, there'll be hidden worlds that shine
    Haiku Jimi is offline   Reply With Quote
    Old 06-19-2004, 10:43 AM   #13
    ennthreepio
    under stuff crashing
     
    ennthreepio's Avatar
     
    Join Date: May 2004
    Location: singapore
    Posts: 149

    Shows Seen: 0

    Re: New song tabs?

    i think the joy ride and hello again and right and well done tabs. crazy easy might not be very accurate.
    __________________
    i like the busted stuff album cover

    singaporean dmb fan. we simply dont exist. with the exception of me.
    ennthreepio is offline   Reply With Quote
    Old 06-19-2004, 10:45 AM   #14
    unccrombie
    HairSlkdBakWayfarersOn
     
    unccrombie's Avatar
     
    Join Date: Jan 2003
    Posts: 43,322

    Shows Seen: 45

    Re: New song tabs?

    just wait for videos...easy sparticus
    unccrombie is offline   Reply With Quote
    Old 06-19-2004, 11:42 AM   #15
    TheBigCaptain
    Old Iron Sides
     
    TheBigCaptain's Avatar
     
    Join Date: Jan 2002
    Location: TX
    Posts: 560

    Shows Seen: 0

    Re: New song tabs?

    .wups

    Last edited by TheBigCaptain; 06-19-2004 at 11:44 AM.
    TheBigCaptain is offline   Reply With Quote
    Old 06-19-2004, 11:43 AM   #16
    TheBigCaptain
    Old Iron Sides
     
    TheBigCaptain's Avatar
     
    Join Date: Jan 2002
    Location: TX
    Posts: 560

    Shows Seen: 0

    Re: New song tabs?

    joy ride and hello again sound good to me, not 100% but something to tide me over
    TheBigCaptain is offline   Reply With Quote
    Old 06-19-2004, 01:35 PM   #17
    deuceman2003
     
    Join Date: Apr 2004
    Location: kennesaw, GA
    Posts: 89

    Shows Seen: 1

    Re: New song tabs?

    It sounds much better on joyride to play Dave's normal G chord the whole time...Keep the b string open instead of playing a d on it
    deuceman2003 is offline   Reply With Quote
    Old 06-19-2004, 02:07 PM   #18
    deuceman2003
     
    Join Date: Apr 2004
    Location: kennesaw, GA
    Posts: 89

    Shows Seen: 1

    Re: New song tabs?

    never mind, I'm an idiot
    deuceman2003 is offline   Reply With Quote
    Old 06-21-2004, 02:36 AM   #19
    PilotC150
    Alpine Bound
     
    PilotC150's Avatar
     
    Join Date: Jul 2002
    Location: Twin Cities
    Posts: 19,981

    Shows Seen: 24

    Re: New song tabs?

    take a bite on this for Joy Ride. It seems to fit along with the "sounds like rapunzel" mentality.

    Code:
    e|------------|-----------------|
    b|------------|-----------------|
    g|------------|-----------------|
    d|-5-5-5--5-5-|-5-5-5--5-5-5--5-|
    a|-5-5-5--3-2-|-5-5-5--3-2-3--2-|
    e|------------|-----------------|
    __________________
    "People ask us all the time...."What's your favorite place to play?" Now, you got your Gorges and you got your Red Rocks and so on, but there's an inexplicable magic that envelopes Alpine Valley. The band is the first to tell you how much they like coming back."
    PilotC150 is offline   Reply With Quote
    Old 06-21-2004, 01:25 PM   #20
    winglet82
     
    winglet82's Avatar
     
    Join Date: Nov 2002
    Location: New jersey
    Posts: 314

    Shows Seen: 6
    Send a message via AIM to winglet82

    Re: New song tabs?

    after hearing the second night's Joy Ride I think there's a possibility it's on a baritone. but anyway, here's what I think is a more accurate verse:

    Code:
    e|------------|-----------------|
    b|------------|-----------------|
    g|------------|-----------------|
    d|------------|-----------------|
    a|-5-5-5--3-2-|-5-5-5--3-2-3--2-|
    e|-3-3-3--3-3-|-3-3-3--3-3-3--3-|
    winglet82 is offline   Reply With Quote
    Old 06-21-2004, 01:43 PM   #21
    PilotC150
    Alpine Bound
     
    PilotC150's Avatar
     
    Join Date: Jul 2002
    Location: Twin Cities
    Posts: 19,981

    Shows Seen: 24

    Re: New song tabs?

    Quote:
    Originally Posted by winglet82
    after hearing the second night's Joy Ride I think there's a possibility it's on a baritone. but anyway, here's what I think is a more accurate verse:

    Code:
    e|------------|-----------------|
    b|------------|-----------------|
    g|------------|-----------------|
    d|------------|-----------------|
    a|-5-5-5--3-2-|-5-5-5--3-2-3--2-|
    e|-3-3-3--3-3-|-3-3-3--3-3-3--3-|
    So you think the G should be an octave lower than I had it written? That's the only different between our two tabs.
    __________________
    "People ask us all the time...."What's your favorite place to play?" Now, you got your Gorges and you got your Red Rocks and so on, but there's an inexplicable magic that envelopes Alpine Valley. The band is the first to tell you how much they like coming back."
    PilotC150 is offline   Reply With Quote
    Old 06-21-2004, 08:34 PM   #22
    SomebodyElse
     
    SomebodyElse's Avatar
     
    Join Date: Apr 2002
    Location: Yorktown, VA
    Posts: 77

    Shows Seen: 4
    Send a message via AIM to SomebodyElse

    Re: New song tabs?

    I'm hearing more of something like this:


    e-----------------------------------
    b-----------------------------------
    g----7-7-7-5-4-------7-7-7-5-4-4----
    d----5-5-5-5-5-------5-5-5-5-5-3----
    a-----------------------------------
    e-----------------------------------


    Kind of a "Stay"-like progression ... whaddya think?
    __________________
    It's amazing what a minute can do ...
    SomebodyElse is offline   Reply With Quote
    Old 06-21-2004, 10:21 PM   #23
    mac4140
     
    mac4140's Avatar
     
    Join Date: Jan 2002
    Location: Aurora, IL
    Posts: 107

    Shows Seen: 37
    Send a message via AIM to mac4140

    Re: New song tabs?

    was at the friday and sunday shows...i'm pretty positive the first chord (3554) and the last chord (335) are correct, couldn't really see what he was playing for the middle, but I play it like rapunzel...this is what i got

    ---------------------------------
    ---------------------------------
    --4--------------4---------------
    --5-----5--5-----5-----5--5--5--
    --5-----3--2-----5-----3--2--3--
    --3--------------3-----------3--
    mac4140 is offline   Reply With Quote
    Old 06-22-2004, 02:23 AM   #24
    winglet82
     
    winglet82's Avatar
     
    Join Date: Nov 2002
    Location: New jersey
    Posts: 314

    Shows Seen: 6
    Send a message via AIM to winglet82

    Re: New song tabs?

    Quote:
    Originally Posted by PilotC150
    So you think the G should be an octave lower than I had it written? That's the only different between our two tabs.

    yes I do. That's why I put it that way.
    winglet82 is offline   Reply With Quote
    Old 06-22-2004, 02:26 AM   #25
    The Floodzone
    Ants SiteOp
     
    The Floodzone's Avatar
     
    Join Date: Jan 2002
    Posts: 2,818

    Shows Seen: 47

    Re: New song tabs?

    Quote:
    Originally Posted by winglet82
    after hearing the second night's Joy Ride I think there's a possibility it's on a baritone. but anyway, here's what I think is a more accurate verse:

    Code:
    e|------------|-----------------|
    b|------------|-----------------|
    g|------------|-----------------|
    d|------------|-----------------|
    a|-5-5-5--3-2-|-5-5-5--3-2-3--2-|
    e|-3-3-3--3-3-|-3-3-3--3-3-3--3-|

    I'm pretty sure its not on a baritone. I've gone to the last 3 shows and I don't recall Dave ever switching guitars before and after a new song.

    Chris
    __________________
    floodzone.antsmarching.org

    The Floodzone is offline   Reply With Quote
    Old 06-23-2004, 02:53 PM   #26
    HendrixWS
     
    Join Date: Jul 2003
    Location: IL
    Posts: 13

    Shows Seen: 11
    Send a message via AIM to HendrixWS

    Re: New song tabs?

    None of the new songs are on a baritone.
    __________________
    Hey Now, All You Sinners Put Your Lights On
    Hey Now, All you Lovers Put Your Lights on
    HendrixWS is offline   Reply With Quote
    Old 07-11-2004, 04:23 PM   #27
    cj4258
     
    Join Date: Jun 2003
    Posts: 6,861

    Shows Seen: 2

    Re: New song tabs?

    This just might be worthy of a sticky... anyone? Bueller? Rottondo?
    cj4258 is offline   Reply With Quote
    Old 07-11-2004, 04:58 PM   #28
    mrottondo
    hmmm...
     
    mrottondo's Avatar
     
    Join Date: Jan 2002
    Location: Montevideo, Uruguay
    Posts: 32,508

    Shows Seen: 3
    Send a message via ICQ to mrottondo Send a message via AIM to mrottondo Send a message via Yahoo to mrottondo

    Re: New song tabs?

    Quote:
    Originally Posted by cj4258
    This just might be worthy of a sticky... anyone? Bueller? Rottondo?
    done and done
    __________________
    Marcelo
    mrottondo is offline   Reply With Quote
    Old 07-11-2004, 05:19 PM   #29
    cj4258
     
    Join Date: Jun 2003
    Posts: 6,861

    Shows Seen: 2

    Re: Official New Songs and Tabs Discussion

    You rock Marcelo.
    cj4258 is offline   Reply With Quote
    Old 07-11-2004, 06:21 PM   #30
    TurboPGT
     
    TurboPGT's Avatar
     
    Join Date: Jul 2004
    Posts: 4,735

    Shows Seen: 22

    Re: Official New Songs and Tabs Discussion

    this is how he played the verse for joy ride...


    ---------------------------------
    ---------------------------------
    --4--------------4---------------
    --5-----5--5-----5-----5--5--5--
    --5-----3--2-----5-----3--2--3--
    --3--------------3-----------3--

    __________________

    Remember Dave uses the same stuff over and over again, just differently. And the notes in between the barred G's are up strokes.

    Also crazy easy is not played the way any of you showed it.....verse was correct, but the intro/outro/ & chorus are wrong..
    TurboPGT is offline   Reply With Quote
    Reply

    Thread Tools
    Display Modes

    Posting Rules
    You may not post new threads
    You may not post replies
    You may not post attachments
    You may not edit your posts

    BB code is On
    Smilies are On
    [IMG] code is Off
    HTML code is Off

    Forum Jump


    Want to hide all ads on Ants? Click here

    All times are GMT -4. The time now is 04:02 AM.


    Powered by vBulletin® Version 3.8.6
    Copyright ©2000 - 2020, Jelsoft Enterprises Ltd.


       
    Site LinksAbout AntsAnts MobileTweet Tweet
    Home
    Ants+
    Tour Central
    Search bar
    RSS Feeds
    About Us
    Contact Us
    The Ants Blog
    Advertise on Ants
    Privacy Policy
    Ants on your cell phone
    iAnts
    mobile news
    mobile setlists
    antslive!
    Ants' Twitter
    DMBLive Twitter
    Ants Facebook
    Ants Instagram
    Matt's Twitter
    Joe's Twitter