Antsmarching.org Forums

Antsmarching.org Forums (http://www.antsmarching.org/forum/index.php)
-   Musician Discussion (http://www.antsmarching.org/forum/forumdisplay.php?f=4)
-   -   Official New Songs and Tabs Discussion (http://www.antsmarching.org/forum/showthread.php?t=105189)

DaveMBFan 06-18-2004 01:19 PM

Official New Songs and Tabs Discussion
 
Hey as most of u guys are aware Dave and the boys are startin to play their new songs for the tour. I was just wonderin how long we will have to wait before people start to get an idea of tabs for these new songs. thanx

AcE25 06-18-2004 01:32 PM

Re: New song tabs?
 
probably til there are several copies available to tab from, and maybe a video to help out.

I'm gonna try to tape the show in chicago tonight to try to tab the new songs, or maybe some more new songs.

unccrombie 06-18-2004 01:50 PM

Re: New song tabs?
 
give it at least 3 weeks

TheBigCaptain 06-18-2004 02:41 PM

Re: New song tabs?
 
someone posted this earlier for joy ride

verse-320033 x3 032033 020033 320033 x3 032033 020033 032033
chorus- E and A maybe

41ravens 06-18-2004 02:45 PM

Re: New song tabs?
 
hello again sounds like variations of G C and F for the verses, then F Bb for the pre-chorus or bridge, whatever it is

Joy Ride is basically Rapunzel for the verse
A-----5---3--2
you can figure the rhythm (sp?) by listening to it
then it sounds like E A for the chorus

that's all I've gotten so far for these and I don't even know if they're right but hopefully someone can take it farther. A video would probably help a lot.

winglet82 06-18-2004 03:39 PM

Re: New song tabs?
 
How about less than 17 hours after they were played? Is that soon enough for you?

New Song 1 (Crazy-Easy)
Dave Matthews Band
Unreleased

Intro

e|-----------|-----------|
b|-----------|-----------|
g|-----------|-----------|
d|-2-----4-4-|-2-----2-2-| x2
a|-0-----2-2-|-0-2-5-0-0-|
E|---3-2-----|---3-2-----|

Verse

e|-4-|-4-|-4-|---|
b|-4-|-4-|-4-|-4-|
g|-4-|-4-|-4-|-4-|
d|-6-|-4-|-2-|-4-|
a|---|---|---|-2-|
E|---|---|---|---|

Chorus

e|---|---|---|---|
b|---|---|-3-|-2-|
g|-4-|-4-|-2-|-2-|
d|-x-|-x-|-0-|-2-|
a|-2-|-2-|---|-0-|
E|-3-|-3-|---|---|


New Song 2 (Joy Ride)
Dave Matthews Band
Unreleased

Intro

e|-3-3-3-3-3-|-3-3-3-3-3-3-|
b|-3-3-3-3-3-|-3-3-3-3-3-3-|
g|-0-0-0-0-0-|-0-0-0-0-0-0-|
d|-0-0-0-x-0-|-0-0-0-x-0-x-|
a|-x-x-x-3-2-|-x-x-x-3-2-3-|
E|-3-3-3-----|-3-3-3-------|

Verse

e|-3-3-3-3-3-|-3-3-3-3-3-3-|
b|-3-3-3-3-3-|-3-3-3-3-3-3-|
g|-0-0-0-0-0-|-0-0-0-0-0-0-|
d|-0-0-0-x-0-|-0-0-0-x-0-x-|
a|-x-x-x-3-2-|-x-x-x-3-2-3-|
E|-3-3-3-----|-3-3-3-------|

e|-3-3-3-3-3-|-3-3-3-3-x-1-x-1-x-1-x-1-|
b|-3-3-3-3-3-|-3-3-3-3-x-1-x-1-x-1-x-1-|
g|-0-0-0-0-0-|-0-0-0-0-x-2-x-2-x-2-x-2-|
d|-0-0-0-x-0-|-0-0-0-x-x-3-x-3-x-3-x-3-|
a|-x-x-x-3-2-|-x-x-x-3-x-3-x-3-x-3-x-3-|
E|-3-3-3-----|-3-3-3---x-1-x-1-x-1-x-1-|

1st Chorus

e|-0-|-0-|
b|-0-|-2-|
g|-1-|-2-|
d|-2-|-2-|
a|-2-|-0-|
E|-0-|---|

e|---------|---------|
b|---------|---------|
g|---------|---------|
d|-2-2-4-4-|-5-5-3-3-|
a|-2-2-x-x-|-x-x-x-x-|
E|-0-0-2-2-|-3-3-1-1-|

2nd Chorus

e|-0-|-0-|
b|-0-|-2-|
g|-1-|-2-|
d|-2-|-2-|
a|-2-|-0-|
E|-0-|---|

e|---------|---------|
b|---------|---------|
g|---------|---------|
d|---------|---------| (repeat)
a|-2-2-4-4-|-5-5-3-3-|
E|-0-0-2-2-|-3-3-1-1-|

Bridge (6/8 time)

e|-0-|-3-|-0-|-0-|-1-|-0-|---|---|
b|-1-|-3-|-1-|-3-|-1-|-1-|-3-|-3-|
g|-0-|-0-|-2-|-0-|-2-|-0-|-3-|-2-|
d|-2-|-0-|-2-|-2-|-3-|-2-|-3-|-0-|
a|-3-|-2-|-0-|-2-|-3-|-3-|-1-|---|
E|---|-3-|---|-0-|-1-|---|---|---|

e|-0-|-3-|-0-|-0-|-1-|-0-|---|---|-0-|-0-|
b|-1-|-3-|-1-|-3-|-1-|-1-|-3-|-3-|-2-|-2-|
g|-0-|-0-|-2-|-0-|-2-|-0-|-3-|-2-|-2-|-2-|
d|-2-|-0-|-2-|-2-|-3-|-2-|-3-|-0-|-2-|-2-|
a|-3-|-2-|-0-|-2-|-3-|-3-|-1-|---|-0-|-0-|
E|---|-3-|---|-0-|-1-|---|---|---|---|---|



New Song 3 (Hello Again)
Dave Matthews Band
Unreleased

Intro/Verse

e|---3---3-|---3---3-|---0---0-|---3---3-|
b|---3---3-|---3---3-|---1---1-|---3---3-|
g|---0-3-0-|---0-3-0-|---0-3-0-|---0-3-0-|
d|---0---0-|---0---0-|---2-----|---0---0-|
a|---x-----|---x-----|-3-3-----|---x-----|
E|-3-3-----|-3-3-----|---------|-3-3-----|

Chorus

e|---------|---------|-0-0-----|----------------|
b|-3-3-----|-3-3-----|-1-1-----|-3-3------------|
g|-3-3-----|-3-3-----|-0-0-----|-3-3------------|
d|-0-0-3-5-|-0-0-3-5-|-2-2-3-5-|-0-0-(rest)-3-5-|
a|-x-x-3-5-|-x-x-3-5-|-3-3-3-5-|-x-x--------3-5-|
E|-3-3-1-3-|-3-3-1-3-|-----1-3-|-3-3--------1-3-|

e|-----------------|-----------------|
b|-----------------|-----------------|
g|-----------------|-----------------|
d|-3-3-3-3-3-3-3-3-|-3-3-3-3-3-3-3-3-|
a|-3-3-3-3-3-3-3-3-|-3-3-3-3-3-3-3-3-|
E|-1-1-1-1-1-1-1-1-|-1-1-1-1-1-1-1-1-|

e|-----------------|-----------------|
b|-----------------|-----------------|
g|-8-8-8-8-8-8-8-8-|-8-8-8-8-8-8-8-8-|
d|-x-x-x-x-x-x-x-x-|-x-x-x-x-x-x-x-x-|
a|-6-6-6-6-6-6-6-6-|-6-6-6-6-6-6-6-6-|
E|-----------------|-----------------|

e|-----------------|-----------------|
b|-----------------|-----------------|
g|-----------------|-----------------|
d|-3-3-3-3-3-3-3-3-|-3-3-3-3-3-3-3-3-|
a|-3-3-3-3-3-3-3-3-|-3-3-3-3-3-3-3-3-|
E|-1-1-1-1-1-1-1-1-|-1-1-1-1-1-1-1-1-|

e|-----------------|-----------------|
b|-----------------|-----------------|
g|-8-8-8-8-8-8-8-8-|-8-8-8-8-8-8-8-8-|
d|-x-x-x-x-x-x-x-x-|-x-x-x-x-x-x-x-x-|
a|-6-6-6-6-6-6-6-6-|-6-6-6-6-6-6-6-6-|
E|-----------------|-----------------|

e|---|-1-|-2-|
b|-3-|-2-|-3-|
g|-3-|-3-|-2-|
d|-3-|-0-|-0-|
a|-1-|---|---|
E|---|---|---|



haven't done the 4th song yet, I'll try to get it done tongiht or tomorrow sometime.

winglet82 06-18-2004 03:40 PM

Re: New song tabs?
 
you might want to copy and paste those into notepad so the spacing is right. Any way to space it correctly on these boards?

unccrombie 06-18-2004 03:51 PM

Re: New song tabs?
 
^ use the [.code] [/code.] tags, just take out the "."

TheBigCaptain 06-18-2004 04:03 PM

Re: New song tabs?
 
i love you

HendrixWS 06-19-2004 03:16 AM

Re: New song tabs?
 
Just got back from the show at Tweeter in IL. Those tabs aren't correct. I dont have accurate tabbing because I was too busy enjoying the show to think about it but I know those tabs aren't right.

HendrixWS 06-19-2004 03:29 AM

Re: New song tabs?
 
No disrespect for the time that was put in but I just dont think they're right.

Haiku Jimi 06-19-2004 04:29 AM

Re: New song tabs?
 
I think HendrixWS might think they're not right

ennthreepio 06-19-2004 10:43 AM

Re: New song tabs?
 
i think the joy ride and hello again and right and well done tabs. crazy easy might not be very accurate.

unccrombie 06-19-2004 10:45 AM

Re: New song tabs?
 
just wait for videos...easy sparticus

TheBigCaptain 06-19-2004 11:42 AM

Re: New song tabs?
 
.wups

TheBigCaptain 06-19-2004 11:43 AM

Re: New song tabs?
 
joy ride and hello again sound good to me, not 100% but something to tide me over

deuceman2003 06-19-2004 01:35 PM

Re: New song tabs?
 
It sounds much better on joyride to play Dave's normal G chord the whole time...Keep the b string open instead of playing a d on it

deuceman2003 06-19-2004 02:07 PM

Re: New song tabs?
 
never mind, I'm an idiot

PilotC150 06-21-2004 02:36 AM

Re: New song tabs?
 
take a bite on this for Joy Ride. It seems to fit along with the "sounds like rapunzel" mentality.

Code:

e|------------|-----------------|
b|------------|-----------------|
g|------------|-----------------|
d|-5-5-5--5-5-|-5-5-5--5-5-5--5-|
a|-5-5-5--3-2-|-5-5-5--3-2-3--2-|
e|------------|-----------------|


winglet82 06-21-2004 01:25 PM

Re: New song tabs?
 
after hearing the second night's Joy Ride I think there's a possibility it's on a baritone. but anyway, here's what I think is a more accurate verse:

Code:

e|------------|-----------------|
b|------------|-----------------|
g|------------|-----------------|
d|------------|-----------------|
a|-5-5-5--3-2-|-5-5-5--3-2-3--2-|
e|-3-3-3--3-3-|-3-3-3--3-3-3--3-|


PilotC150 06-21-2004 01:43 PM

Re: New song tabs?
 
Quote:

Originally Posted by winglet82
after hearing the second night's Joy Ride I think there's a possibility it's on a baritone. but anyway, here's what I think is a more accurate verse:

Code:

e|------------|-----------------|
b|------------|-----------------|
g|------------|-----------------|
d|------------|-----------------|
a|-5-5-5--3-2-|-5-5-5--3-2-3--2-|
e|-3-3-3--3-3-|-3-3-3--3-3-3--3-|


So you think the G should be an octave lower than I had it written? That's the only different between our two tabs.

SomebodyElse 06-21-2004 08:34 PM

Re: New song tabs?
 
I'm hearing more of something like this:


e-----------------------------------
b-----------------------------------
g----7-7-7-5-4-------7-7-7-5-4-4----
d----5-5-5-5-5-------5-5-5-5-5-3----
a-----------------------------------
e-----------------------------------


Kind of a "Stay"-like progression ... whaddya think?

mac4140 06-21-2004 10:21 PM

Re: New song tabs?
 
was at the friday and sunday shows...i'm pretty positive the first chord (3554) and the last chord (335) are correct, couldn't really see what he was playing for the middle, but I play it like rapunzel...this is what i got

---------------------------------
---------------------------------
--4--------------4---------------
--5-----5--5-----5-----5--5--5--
--5-----3--2-----5-----3--2--3--
--3--------------3-----------3--

winglet82 06-22-2004 02:23 AM

Re: New song tabs?
 
Quote:

Originally Posted by PilotC150
So you think the G should be an octave lower than I had it written? That's the only different between our two tabs.


yes I do. That's why I put it that way.

The Floodzone 06-22-2004 02:26 AM

Re: New song tabs?
 
Quote:

Originally Posted by winglet82
after hearing the second night's Joy Ride I think there's a possibility it's on a baritone. but anyway, here's what I think is a more accurate verse:

Code:

e|------------|-----------------|
b|------------|-----------------|
g|------------|-----------------|
d|------------|-----------------|
a|-5-5-5--3-2-|-5-5-5--3-2-3--2-|
e|-3-3-3--3-3-|-3-3-3--3-3-3--3-|



I'm pretty sure its not on a baritone. I've gone to the last 3 shows and I don't recall Dave ever switching guitars before and after a new song.

Chris

HendrixWS 06-23-2004 02:53 PM

Re: New song tabs?
 
None of the new songs are on a baritone.

cj4258 07-11-2004 04:23 PM

Re: New song tabs?
 
This just might be worthy of a sticky... anyone? Bueller? Rottondo?

mrottondo 07-11-2004 04:58 PM

Re: New song tabs?
 
Quote:

Originally Posted by cj4258
This just might be worthy of a sticky... anyone? Bueller? Rottondo?

done and done ;)

cj4258 07-11-2004 05:19 PM

Re: Official New Songs and Tabs Discussion
 
You rock Marcelo. :thumbsup

TurboPGT 07-11-2004 06:21 PM

Re: Official New Songs and Tabs Discussion
 
this is how he played the verse for joy ride...


---------------------------------
---------------------------------
--4--------------4---------------
--5-----5--5-----5-----5--5--5--
--5-----3--2-----5-----3--2--3--
--3--------------3-----------3--

__________________

Remember Dave uses the same stuff over and over again, just differently. And the notes in between the barred G's are up strokes.

Also crazy easy is not played the way any of you showed it.....verse was correct, but the intro/outro/ & chorus are wrong..


All times are GMT -4. The time now is 12:37 PM.

Powered by vBulletin® Version 3.8.6
Copyright ©2000 - 2022, Jelsoft Enterprises Ltd.
All trademarks and copyrights are owned by their respective owners. Comments are owned by the poster. The rest is owned by antsmarching.org.