Official New Songs and Tabs Discussion - Page 8 - Antsmarching.org Forums

Go Back   Antsmarching.org Forums > General Discussion > Musician Discussion


Want to hide all ads on Ants? Click here
Reply
 
Thread Tools Display Modes
Old 09-08-2012, 12:52 AM   #211
Jeff31b
 
Jeff31b's Avatar
 
Join Date: Jul 2008
Posts: 2,428

Shows Seen: 44

Re: Official New Songs and Tabs Discussion

Sorry, should have double checked it

Snow Outside

Intro

-------------------------------------------
-------------------------------------------
---0h2------0--------0-------0-------0---
---------2-------3--------3------5-------
-------------------------------------------
-------------------------------------------

Verse

----------------------
----------------------
---0h2-----0---------
--------2-------------
---------------3--2---
---------------------- x3


----------------------
----------------------
---0h2----0---------
--------2------------
---------------------
--------------1---3--- x1
__________________
WHEN I DIE BURY ME DEEP AND PLACE TWO SPEAKERS AT MY FEET OR PUT A GUITAR IN MY HAND AND ALWAYS JAM DAVE MATTHEWS BAND.

2014 - Va Beach and Bristow

Last edited by Jeff31b; 09-08-2012 at 12:53 AM.
Jeff31b is offline   Reply With Quote

  • Want to hide all ads on Ants? Click here
  • Old 09-08-2012, 02:24 AM   #212
    douglaskg41
    Here We Go Redlegs!!!
     
    douglaskg41's Avatar
     
    Join Date: Jun 2004
    Location: The Nati
    Posts: 2,477

    Shows Seen: 34

    Re: Official New Songs and Tabs Discussion

    I've done a few "play along" videos for youtube... hopefully they might help:

    Belly Belly Nice
    http://www.youtube.com/watch?v=FcJhN...&feature=g-upl

    Rooftop
    http://www.youtube.com/watch?v=D7Mcp...re=context-gau

    Broken Things
    http://www.youtube.com/watch?v=yjx0Z...re=context-gau
    __________________
    Everyday(fake)>Halloween>Water Wine Jam.... FTW, checkmate
    douglaskg41 is offline   Reply With Quote
    Old 09-20-2012, 12:46 PM   #213
    thornofmight
     
    Join Date: Sep 2012
    Posts: 6

    Shows Seen: 0

    Re: Official New Songs and Tabs Discussion

    I did a cover of Belly Full and posted a lesson on Youtube as well.

    Capo on second fret.

    Here's the lesson: http://www.youtube.com/watch?v=oIhF3bubjsA
    thornofmight is offline   Reply With Quote
    Old 10-02-2012, 01:07 AM   #214
    sfsmith18
     
    Join Date: Jun 2010
    Posts: 1

    Shows Seen: 0

    Re: Official New Songs and Tabs Discussion

    Quote:
    Originally Posted by douglaskg41 View Post
    I've done a few "play along" videos for youtube... hopefully they might help:

    Belly Belly Nice
    http://www.youtube.com/watch?v=FcJhN...&feature=g-upl

    Rooftop
    http://www.youtube.com/watch?v=D7Mcp...re=context-gau

    Broken Things
    http://www.youtube.com/watch?v=yjx0Z...re=context-gau


    Just subscribed.. Awesome job, can you tab those bitches?
    sfsmith18 is offline   Reply With Quote
    Old 10-28-2012, 01:49 AM   #215
    done77
    Registered User
     
    Join Date: Oct 2012
    Posts: 2

    Shows Seen: 0

    Re: Official New Songs and Tabs Discussion

    Quote:
    Originally Posted by douglaskg41 View Post
    awesome !!
    done77 is offline   Reply With Quote
    Old 01-30-2013, 04:36 PM   #216
    Rockyall107
    Ya Dig?
     
    Rockyall107's Avatar
     
    Join Date: Jan 2004
    Location: Northern Liberties - Philly
    Posts: 3,630

    Shows Seen: 40

    Re: Official New Songs and Tabs Discussion

    Hey guys, i was hoping somebody could help me out with Tim Reynolds parts on The Riff. Im currently trying to work on an acoustic version of this with layered guitar. Or maybe even a way to do the main riff in a higher octave. Thanks, unfortunately my musical prowess only extends so far haha.
    __________________
    Ryan
    Rockyall107 is offline   Reply With Quote
    Old 02-18-2013, 11:31 AM   #217
    dmbfan1011
    The Meddle Piper
     
    dmbfan1011's Avatar
     
    Join Date: Jul 2011
    Location: Auburn, AL
    Posts: 4,052

    Shows Seen: 12

    Re: Official New Songs and Tabs Discussion

    What I could make of cigarette lit

    http://antsmarching.org/forum/showth...4#post14365244
    dmbfan1011 is offline   Reply With Quote
    Old 05-15-2013, 11:13 PM   #218
    dmbfan1011
    The Meddle Piper
     
    dmbfan1011's Avatar
     
    Join Date: Jul 2011
    Location: Auburn, AL
    Posts: 4,052

    Shows Seen: 12

    Re: Official New Songs and Tabs Discussion

    Didn't see Needle and the Damage Done on davetabs.com. So here is my take on it.


    e----h2----h2---h2----h2----------------------------------------------------------
    B-----3-----3-----3-----3----------------------------------------------------------
    G-----2-----2-----2-----x------------0-2-3-2-0------2----1-------------------------
    D---0----------------------------0h2------------2----2----2-----------------------
    A---------3-----2-----1--------3----------------------2----2-----------------------
    E------------------------------------------------------0----0-------------------

    e----h2----h2---h2----h2----------------------------------------------------------
    B-----3-----3-----3-----3------------2---------------------------------------------
    G-----2-----2-----2-----x------5-----x-----1--------------------------------
    D---0---------------------------5-----3-----2-------------------------------
    A---------3-----2-----1--------3------------2------------------------------------
    E---------------------------------------------0-------------------------------

    Never will be good at typing these.
    Ps. Not going to be readable via phone.
    __________________
    My Shows - My Almanac
    -Nick
    dmbfan1011 is offline   Reply With Quote
    Old 05-27-2013, 04:11 PM   #219
    dmbfan1011
    The Meddle Piper
     
    dmbfan1011's Avatar
     
    Join Date: Jul 2011
    Location: Auburn, AL
    Posts: 4,052

    Shows Seen: 12

    Re: Official New Songs and Tabs Discussion

    Quote:
    Originally Posted by dmbfan1011 View Post
    Didn't see Needle and the Damage Done on davetabs.com. So here is my take on it.


    e-----2p0--2p0--2p0--2p0----------------------------------------------
    B-----3-----3-----3-----3----------------------------------------------------------
    G-----2-----2-----2-----x------------0-2-3-2-0------2----1-------------------------
    D---0----------------------------0h2------------2----2----2-----------------------
    A---------3-----2-----1--------3----------------------2----2-----------------------
    E------------------------------------------------------0----0-------------------

    e----2p0---2p0---2p0--2p0------------------------------------------------------
    B-----3-----3-----3-----3------------3---------------------------------------------
    G-----2-----2-----2-----x------5-----x-----2-----1---------------------------
    D---0---------------------------5-----3-----2-----2--------------------------
    A---------3-----2-----1--------3------------2-----2------------------------------
    E---------------------------------------------0-----0--------------------------

    Never will be good at typing these.
    Ps. Not going to be readable via phone.
    adjusted.
    __________________
    My Shows - My Almanac
    -Nick
    dmbfan1011 is offline   Reply With Quote
    Old 08-20-2013, 05:03 PM   #220
    ToySoldier#34
     
    ToySoldier#34's Avatar
     
    Join Date: Nov 2010
    Posts: 11,941

    Shows Seen: 0

    Re: Official New Songs and Tabs Discussion

    I have been trying to figure out the tabs for The Temple but can't and I don't see them anywhere online, can someone tab them?
    ToySoldier#34 is offline   Reply With Quote
    Old 09-20-2013, 03:12 PM   #221
    cry_minarets458
    MM#45 Wacco for Flacco
     
    cry_minarets458's Avatar
     
    Join Date: Aug 2007
    Location: Give me BETHEL or give me death.... death, death it is then
    Posts: 19,813

    Shows Seen: 60

    Re: Official New Songs and Tabs Discussion

    Does anyone have a tab for drunken soldier? he plays it differently than the one that is listed on dave tabs....most notably the part before "once round, just once"....
    __________________
    Mao's WWYS Quest: fin @ show 39 MattsMarching 1 Gorge Medal
    Quote:
    Originally Posted by efraser77 View Post
    *renounces DMB fandom*
    Quote:
    Originally Posted by Prime Minister
    In fairness Brian Wilson's Beard > Amy Winehouse & the grammys & spoot.
    cry_minarets458 is offline   Reply With Quote
    Old 10-15-2013, 06:44 PM   #222
    OLDMANTIME
    themoonischasingme
     
    OLDMANTIME's Avatar
     
    Join Date: Feb 2005
    Posts: 828

    Shows Seen: 11

    Re: Official New Songs and Tabs Discussion

    One of my favorite songs and Dave does a great cover! Thanks for the tab!
    Quote:
    Originally Posted by dmbfan1011 View Post
    Didn't see Needle and the Damage Done on davetabs.com. So here is my take on it.


    e----h2----h2---h2----h2----------------------------------------------------------
    B-----3-----3-----3-----3----------------------------------------------------------
    G-----2-----2-----2-----x------------0-2-3-2-0------2----1-------------------------
    D---0----------------------------0h2------------2----2----2-----------------------
    A---------3-----2-----1--------3----------------------2----2-----------------------
    E------------------------------------------------------0----0-------------------

    e----h2----h2---h2----h2----------------------------------------------------------
    B-----3-----3-----3-----3------------2---------------------------------------------
    G-----2-----2-----2-----x------5-----x-----1--------------------------------
    D---0---------------------------5-----3-----2-------------------------------
    A---------3-----2-----1--------3------------2------------------------------------
    E---------------------------------------------0-------------------------------

    Never will be good at typing these.
    Ps. Not going to be readable via phone.
    __________________
    www.GuitarMoose.com
    OLDMANTIME is offline   Reply With Quote
    Old 01-02-2014, 01:25 PM   #223
    OoYeahTrafikJam
    Que Sera, Sera
     
    OoYeahTrafikJam's Avatar
     
    Join Date: Jul 2011
    Posts: 103

    Shows Seen: 8

    Re: Official New Songs and Tabs Discussion

    Anyone have a tab for the one-off jam from 1994 entitled "sister"? (not to be confused with today's Sister) I would really like to learn this song. Thanks...

    Here's the link to listen:
    http://www.youtube.com/watch?v=-e3VcqMnHqs
    __________________
    time is short yeah that's alright, maybe I'll go out in the middle of the night
    OoYeahTrafikJam is offline   Reply With Quote
    Old 01-29-2014, 11:42 AM   #224
    alibab
    Registered User
     
    Join Date: Jan 2014
    Posts: 8

    Shows Seen: 0

    Re: Official New Songs and Tabs Discussion

    Quote:
    Originally Posted by douglaskg41 View Post
    I've done a few "play along" videos for youtube... hopefully they might help:

    Belly Belly Nice
    http://www.youtube.com/watch?v=FcJhN...&feature=g-upl

    Rooftop
    http://www.youtube.com/watch?v=D7Mcp...re=context-gau

    Broken Things
    http://www.youtube.com/watch?v=yjx0Z...re=context-gau
    stunning
    alibab is offline   Reply With Quote
    Old 02-05-2014, 09:31 PM   #225
    tjg41
     
    Join Date: Jul 2010
    Posts: 196

    Shows Seen: 21

    Re: Official New Songs and Tabs Discussion

    Anyone able to tab out the deed is done jam played in New Orleans Dave and tim shows?
    __________________
    DMB Covers
    tjg41 is offline   Reply With Quote
    Old 03-29-2014, 10:56 AM   #226
    joust
     
    Join Date: Jul 2003
    Posts: 19

    Shows Seen: 0

    Re: Official New Songs and Tabs Discussion

    Quote:
    Originally Posted by tjg41 View Post
    Anyone able to tab out the deed is done jam played in New Orleans Dave and tim shows?
    Play around with this and then throw the Deed is Done riff in there
    --------------------------
    --------------------------
    --------------------------
    9---7---6---5---7---5---7
    7---5---4---5---7---5---7
    0---0---0---3---5---3---5
    joust is offline   Reply With Quote
    Old 03-29-2014, 02:24 PM   #227
    vilmafan51
     
    vilmafan51's Avatar
     
    Join Date: Aug 2006
    Posts: 481

    Shows Seen: 20

    Re: Official New Songs and Tabs Discussion

    Quote:
    Originally Posted by tjg41 View Post
    Anyone able to tab out the deed is done jam played in New Orleans Dave and tim shows?
    Accurate tab is up:

    http://www.davetabs.com/deed-is-done.html
    __________________
    DMB guitar tabs that are Updated, Accurate, Useful, Comprehensive, Awesome: www.DaveTabs.com
    vilmafan51 is offline   Reply With Quote
    Old 06-19-2015, 09:44 PM   #228
    CANADIA13
     
    Join Date: Sep 2002
    Posts: 4

    Shows Seen: 15

    Re: Official New Songs and Tabs Discussion

    Virginia in the Rain tabs

    http://www.dmbtabs.com/boards/viewto...p?f=1&t=154965
    CANADIA13 is offline   Reply With Quote
    Old 09-14-2016, 03:47 PM   #229
    bsredbaron
     
    Join Date: Jun 2016
    Posts: 12

    Shows Seen: 2

    Re: Official New Songs and Tabs Discussion

    I don't know if this thread is dead or not but I believe I've tabbed Sexy M.F
    Sexy m.f tab

    Strum this to the rhythm and throw in a couple mutes now and then
    e -----x-----
    B -----12----
    G -----12----
    D -----12----
    A -----12----
    E -----x-----

    Walk down

    e------------------------------
    B----12-------7-6-5-----------
    G----12-------7-6-5-----------
    D----12-------7-6-5-----------
    A----12-------7-6-5------------
    E-------------------------------
    Return to first part
    bsredbaron is offline   Reply With Quote
    Old 11-14-2016, 07:37 PM   #230
    currupt3d**
     
    currupt3d**'s Avatar
     
    Join Date: Sep 2007
    Location: Scranton,PA
    Posts: 1,871

    Shows Seen: 11

    Re: Official New Songs and Tabs Discussion

    test 88888888888
    currupt3d** is offline   Reply With Quote
    Old 11-14-2016, 07:38 PM   #231
    currupt3d**
     
    currupt3d**'s Avatar
     
    Join Date: Sep 2007
    Location: Scranton,PA
    Posts: 1,871

    Shows Seen: 11

    Re: Official New Songs and Tabs Discussion

    test 888888
    currupt3d** is offline   Reply With Quote
    Old 03-03-2017, 07:17 AM   #232
    OoYeahTrafikJam
    Que Sera, Sera
     
    OoYeahTrafikJam's Avatar
     
    Join Date: Jul 2011
    Posts: 103

    Shows Seen: 8

    Re: Official New Songs and Tabs Discussion

    anyone got Song for Billijo tabbed out?

    i've got a rough sketch but not the full thing
    __________________
    time is short yeah that's alright, maybe I'll go out in the middle of the night
    OoYeahTrafikJam is offline   Reply With Quote
    Old 04-01-2017, 06:49 PM   #233
    crazyhorse
     
    crazyhorse's Avatar
     
    Join Date: Sep 2002
    Posts: 933

    Shows Seen: 103

    Re: Official New Songs and Tabs Discussion

    anyone have the new version of dreamgirl tabbed out, how they have been playing it in europe 2017? thanks in advance
    crazyhorse is offline   Reply With Quote
    Reply

    Bookmarks

    Thread Tools
    Display Modes

    Posting Rules
    You may not post new threads
    You may not post replies
    You may not post attachments
    You may not edit your posts

    BB code is On
    Smilies are On
    [IMG] code is Off
    HTML code is Off

    Forum Jump


    Want to hide all ads on Ants? Click here

    All times are GMT -4. The time now is 04:13 AM.


    Powered by vBulletin® Version 3.8.6
    Copyright ©2000 - 2017, Jelsoft Enterprises Ltd.


       
    Site LinksAbout AntsAnts MobileTweet Tweet
    Home
    Ants+
    Tour Central
    Search bar
    RSS Feeds
    About Us
    Contact Us
    The Ants Blog
    Advertise on Ants
    Ants on your cell phone
    iAnts
    mobile news
    mobile setlists
    antslive!
    Ants' Twitter
    DMBLive Twitter
    Matt's Twitter
    Jake's Twitter
    Joe's Twitter